Název skladby
    
Interpret, skladatel
    
Část textu písně
    

Texty písní:
A B C D E F G H
I J K L M N O P
Q R S T U V W X
Y Z ...

Interpreti:
A B C D E F G H
I J K L M N O P
Q R S T U V W X
Y Z ...



Horkýže Slíže [-] Transpozice [+]   Tisk textu     


Telegram - taby

Horkýže Slíže



( Tabbed by Andy Krajčo Boston )

Základný riff: Po prvý krát sa hrá až od D-duru.

E ---------------------------------------------------/   
h ---------------------------------------------------/  
G -------------------------5--7-7--------------------/  
D -7---7-7-7----7---7-7-7--5--7-7---5-5--2-2--5-5--7-/
A -7---7-7-7----7---7-7-7--3--5-5---5-5--2-2--5-5--7-/
E -5---5-5-5-0--5---5-5-5-----------3-3--0-0--3-3--5-/


       Neonovy nápis welcome, welcome ako zo...
E ------------------------------------------------/
h ------------------------------------------------/
G ----5--7--------5--0--2-----5--7--------5--0--2-/
D -7--5--7--5--7--5--0--2--7--5--7--5--7--5--0--2-/
A -7--3--5--5--7--3--------7--3--5--5--7--3-------/   
E -5--------3--5-----------5--------3--5----------/  



E -----------------------------------------------------/
h -----------------------------------------------------/
G -----------------------------------------------------/
D -----------------------------------------------------/
A -7-6-5-0---7-6-5-0----5--5---------------------------/     
E ----------------------------3--3---0--0---3--3----5--/    

Koniec(nepočítal som to).
E -----------------------------------------------------/
h -----------------------------------------------------/    
G -----------------------------------------------------/   
D -----------------------------------------------------/
A -----7-6-5-0--7-6-5-7-6-5-0-7-6-5-7-6-5-0------------/
E -----------------------------------------------------/      


Riffy som nepočítal. Nie je to potrebné. 
Najlepšie by bolo keby ste mali nahrávku doma.
 Bez to bude fakt od veci. 
Ak potrebujete ešte iné moje tabulatúri, zamailujte mi. 
Môj e-mail: andykboston@euroweb.sk 

S pozdravom Váš Andy