Název skladby
    
Interpret, skladatel
    
Část textu písně
    

Texty písní:
A B C D E F G H
I J K L M N O P
Q R S T U V W X
Y Z ...

Interpreti:
A B C D E F G H
I J K L M N O P
Q R S T U V W X
Y Z ...



Horkýže Slíže [-] Transpozice [+]   Tisk textu     


Sex po telefóne - tabulatúra so sólom

Horkýže Slíže




   (tabbed by Andy krajčo boston)

vysvetlivky:
* -  tlmenie
/ - glisando
()- na akú notu prst vytiahnúť

riff.a
tento riff sa hrá skoro stále. Na začiatku, počas spevu,
len refrén je iný.
E ----------------------------------------------------|
H ----------------------------------------------------|
G --------7--7---------7--7---------7--7-5-5-5-5-7--7-|
D 8-8-8-8-7--7-8-8-8-8-7--7-8-8-8-8-7--7-5-5-5-5-7--7-|
A 8-8-8-8-5--5-8-8-8-8-5--5-8-8-8-8-5--5-3-3-3-3-5--5-|
E 6-6-6-6------6-6-6-6------6-6-6-6-------------------|


E ----------------------------------------------------/
H ----------------------------------------------------/
G 5-5-5-5-7--7-5-5-5-5-7--7-5-5-5-5-7--7---------5--5-/
D 5-5-5-5-7--7-5-5-5-5-7--7-5-5-5-5-7--7-3-3-3-3-5--5-/
A 3-3-3-3-5--5-3-3-3-3-5--5-3-3-3-3-5--5-3-3-3-3-3--3-/
E ---------------------------------------1-1-1-1------/

riff.b
Na začiatku riffu.b gitara nehrá nič. Hrá len basa rozklad
z D - duru. Gitara sa pripojí až neskôr a hrá...
odporúčam, trochu tlmte. Samozrejme opakujte.
1.akord D-dur opakovať a tlmiť 24 krát
2.akord C-dur opakovať a tlmiť 16 krát
3.akord D-dur opakovať a tlmiť 16 krát
E ----------------------/
H ----------------------/
G 7---------5----------7/ 
D 7---------5----------7/ 
A 5---------3----------5/
E ----------------------/

na konci riffu.b zahrá gitara.:
E ----------------/
H ----------------/
G -5--5/7--7-7----/
D -5--5/7--7-7----/
A ----------------/
E ----------------/

SÓLO
E -5-8-5-8-5-------------|-----------------------|
H -----------8-5---------|-----------------------|
G ---------------7-5-7-7~|-5-7(9)7-5---5-7(9)7-5-|
D -----------------------|-----------7-----------|
A -----------------------|-----------------------|
E -----------------------|-----------------------|

E -5-6-5-6-8-5-6-5--------------------------------|
H -----------------8-6-5-6-5---------------------8|
G ---------------------------5-7--5-4-5-7~--5-4-5-|
D ------------------------------------------------|
A ------------------------------------------------|
E ------------------------------------------------|

E --5-5--5--------------5-6-5-6-5-6-5-6-5-------------|
H 5----8-5--8-5--6-5-6--------------------8-6-5-6-5-6-|
G ---------7------------------------------------------|
D ----------------------------------------------------|
A ----------------------------------------------------|
E ----------------------------------------------------|

pozor tlmte!
E --------------------------------|
H ----------------------------5---|
G ---------5-7-7----------5-7-----|
D -----5-7------------5-7---------|
A ---7--------------7-------------|
E -8--------------8---------------|

E -----------------5--8trilok s päťkou--5--/
H -----------------------------------------/
G ----------5-7~---------------------------/
D -----5-7---------------------------------/
A ---7-------------------------------------/
E -8---------------------------------------/


...a tu je už úplný koniec...
(prachy boli sú aj budú)
E ---------------------------/
H ---------------------------/
G -7-7--3-3--5-5-5-5-5-5-5-5-/
D -7-7--3-3--5-5-5-5-5-5-5-5-/
A -5-5--1-1--3-3-3-3-3-3-3-3-/
E ---------------------------/
Posledný takt patrí prvej časti riffu a.

Čo poviete?
Dobrá skladba, ale ak náhodou nájdete chybu 
zamailujte mi na mail.: andykboston@euroweb.sk
Zamailujte mi, pokecáme o muzičke 
a teším sa na Vás. 
			Andy Krajčo Boston