Název skladby
    
Interpret, skladatel
    
Část textu písně
    

Texty písní:
A B C D E F G H
I J K L M N O P
Q R S T U V W X
Y Z ...

Interpreti:
A B C D E F G H
I J K L M N O P
Q R S T U V W X
Y Z ...



Bez ladu a skladu [-] Transpozice [+]   Tisk textu     


Píšte všetci modrým perom

Bez ladu a skladu



******autorova*poznámka******* 
Takže, celú pieseň podfarbuje 
silná basová linka, saxafón 
s akordickým pozadím, gitarka 
a bicie. Je to nádhera! 
******************************

bass: 1a                                                          1b
  C           A   C           A  B            A  B            A
G-------------2---------------2---------------2---------------2-  -2h3p2h3-
D-----5---6-----------5---6-----------5---6-----------5---6-----
A-3---------------3---------------3---------------3-------------
E---------------------------------------------------------------
Intro: 3x 1a potom 1b 

C                     A    C,A
Píšte všetci modrým perom, 
          B       A,B ,A
iná farba nebude, 
C                     A 
píšte všetci rovnako, 
C       A            B,A,B,A,
rovnaké a rovnaké o, 
C            A                   C   A 
rovnaké písmo, rovnaké vzdialenosti, 
B                     A       H,A
kúpte si všetci modrý atrament

(1b)
bass: 2a                                                          
  C            A   C           A    B            A  B            A
G--------------2---------------2----------------2---------------2-  
D-----5-5-6-6----------5-5-6-6----------5-5-6-6---------5-5-6-6---
A-3-3--------------3-3--------------3-3-------------3-3-----------
E-----------------------------------------------------------------

C                     A    C         A         
Píšte všetci modrým perom, iná farba nebude, 
B               A     B                 A    
píšte všetci rovnako, rovnaké a rovnaké o, 
C                                A     
rovnaké písmo, rovnaké vzdialenosti, 
C                     A         
kúpte si všetci modrý atrament
B                     A    B         A         
Píšte všetci modrým perom, iná farba nebude, 
C               A     C                 A    
píšte všetci rovnako, rovnaké a rovnaké o, 
B                                A     
rovnaké písmo, rovnaké vzdialenosti, 
B                     A         
kúpte si všetci modrý atrament

3x(2a)

by yroem