Název skladby
    
Interpret, skladatel
    
Část textu písně
    

Texty písní:
A B C D E F G H
I J K L M N O P
Q R S T U V W X
Y Z ...

Interpreti:
A B C D E F G H
I J K L M N O P
Q R S T U V W X
Y Z ...



The Corrs /Corrs [-] Transpozice [+]   Tisk textu     


Only When I sleep ..

The Corrs /Corrs




G^: E-2, A-3, G-0, D-0, A-X, E-3

Riff2:
D -2-2-2-X--
A -1-2-4-4--
E -X-X-X-2--

Intro:
|-------------------------------------------------|
|--------3--5--5/7--------------------------------|
|--4--6-------------------------------------------|
|-------------------------------------------------|x2
|-------------------------------------------------|
|-------------------------------------------------|

|---7--5------------------------------------------|
|---------7---5-------5---7-------0--3--5--7------|
|-----------------7-----------4---------------2---|
|-------------------------------------------------|
|-------------------------------------------------|
|-------------------------------------------------|


Hmi, D7, E, Emi, A
 

Hmi    A           E            
You’re only just a dreamboat  
Hmi                  
Sailing in my head 
    A              E        
You swim my secret oceans 
Hmi                     
Of coral blue and red 
     A                E         
Your smell is incense burning 
G^                         
Your touch is silken yet 
                      D      
It reaches through my skin 
G^                       
And moving from within 
                  Riff2    
It clutches at my breast 

                     Hmi     
But it’s only when I sleep 
              D7       
See you in my dreams 
                    E                 
You got me spinning round and round 
Emi       A           
Turning upside-down 
                    Hmi       
But I only hear you breathe 

                D7      
Somewhere in my sleep 
                E                 
Got me spinning round and round 
Emi       A           
Turning upside-down 
                  Hmi       
But its only when I sleep 

And when I wake from slumber 
Your shadow’s disappear 
Your breath is just a sea mist 
Surrounding my body 
I’m workin’ through the daytime 
But when it’s time to rest 
I’m lying in my bed 
Listening to my breath 
Falling from the edge 

But it’s only when I sleep 
See you in my dreams, (dreams) 
You got me spinning round and round 
Turning upside-down 
But I only hear you breathe 
Somewhere in my sleep, (in my sleep) 
Got me spinning round and round 
Turning upside-down 
But its only when I sleep 
It’s only when I sleep 

Sharon & Andrea solo
 

Up to the sky 
Where angels fly 
I’ll never die 
Hawaiian High 
In bed I lie 
No need to cry 
My sleeping cry 
Hawaiian High 

It’s reaching through my skin 
Movin’ from within 
And clutches at my breasts... 

But it’s only when I sleep... 
See you in my dreams, (dreams) 
You got me spinning round and round 
Turning upside-down 
But I only hear you breathe 

In bed I lie 
No need to cry 
My sleeping cry 
Hawaiian High 

But it’s only when I sleep... aaaaaaa.... 
Got me spinning round and round 
(Turning upside-down) 

Up to the sky 
Where angels fly 
I’ll never die 
Hawaiian High 
But it’s only when I sleep...