Název skladby
    
Interpret, skladatel
    
Část textu písně
    

Texty písní:
A B C D E F G H
I J K L M N O P
Q R S T U V W X
Y Z ...

Interpreti:
A B C D E F G H
I J K L M N O P
Q R S T U V W X
Y Z ...



Arakain [-] Transpozice [+]   Tisk textu     


Poslední valčík

Arakain




 riff A       
e--------------------------------------------------
h--------------------------------------------------
g--------------------------------------------------
d-----3--3--3-------------3--3--3---------------
a-----1--1--1---121----- 1--1--1----12--------
e--------------------- 4 ---------------------- 4-

 riff B  
e--------------------------------------
h--------------------------------------
g------------1-------------------------
d----3-3-3----3---1-1-1----1-------
a-------------------------- 4 ---------
e--------------------------------------

Předehra: riff A 4x 
                riff B 2x
                riff A 4x
                riff B 2x



  B        F#     G#            F#     
  Nechám si zahrát poslední val  čík,
  B       F#         G#        
  už mě to tady vážně nebaví.
  B         F#    G#        B    F#      
  Vedle nás  juchá plesovej  prou tník,
  B            F#               G#        
   při tancích, který cpeš mi do  hlavy.
Tak už dost!

riff A 2x

Motýl mě dusí a boty tlačí,
ani pár deci to hned nespraví.
Orchestr zahrál prej pro ty mladší,
jenže mám z toho uši děravý.


 D--3----- 4 ----6------ 4 ---3-----4 ---6-----8-6-
 A-- 1---- 2----- 4 -----2----1-----2--- 4----------8
  E-----00---00-----00---00---00---00---00--



Chvíle,kdy tě mám rád 
jsou pořád kratší a kratší,
pro tenhle životní styl 
asi nemám dost sil.
A tak ti povídám,tohle
je poslední valčík.
poslední co ti dám,
poslední kterej ti zbyl.

Nechá ti zahrát………..

Chvíle,kdy tě mám rád…….